How To Play Sweet Home Alabama On Guitar Tabs

How To Play Sweet Home Alabama On Guitar Tabs

How to Play Sweet Home Alabama on Guitar Tabs

Introduction

"Sweet Home Alabama" is a timeless classic rock anthem written and performed by the Southern rock band Lynyrd Skynyrd. Its infectious melody and poignant lyrics have made it a beloved hit for generations. This article provides a comprehensive guide on how to play this iconic song on guitar using tablature (tabs).

Step-by-Step Guide

1. Tuning Your Guitar

Ensure your guitar is tuned to standard tuning (E, A, D, G, B, E) before proceeding.

2. Strum Pattern

The basic strum pattern for "Sweet Home Alabama" follows this sequence:

D D D U D U D D
  • D = Downstrokes
  • U = Upstrokes

3. Verse Chords

The verse chords include four main chords:

  • G (320003)
  • D (xx0232)
  • C (x32010)
  • Em (022000)

4. Chorus Chords

The chorus features a different set of chords:

  • C (x32010)
  • G (320003)
  • Am (x02210)
  • F (133211)

5. Guitar Tabs

Here are the complete guitar tabs for "Sweet Home Alabama":

Verse 1

e|-----------3------------|-----------3-------------------|
B|-----------3------------|-----------3-------------------|
G|-----------0------------|-----------0-------------------|
D|-----------0------------|-----------0-------------------|
A|-------2-------2--------|-------2-------2---------------|
E|--3---3---3------3------|--3---3---3------3-------------|

Chorus

e|-----------0----------------|-----------0-------------------|
B|-----------1----------------|-----------1-------------------|
G|-----------0----------------|-----------0-------------------|
D|-----------2----------------|-----------2-------------------|
A|-------3-------3--------|-------3-------3---------------|
E|--1---1---1------1------|--1---1---1------1-------------|

Bridge

e|--------------------------------|--------------------------------|
B|--------------------------------|--------------------------------|
G|-----2---------------4-----|-----2---------------4-----|
D|---3---3---3----3---------|---3---3---3----3---------|
A|--------------------------------|--------------------------------|
E|--------------------------------|--------------------------------|

Repeat Verse 1 and Chorus

Outro (Repeat Chorus)

Additional Information

  • The song was released in 1974 as part of Lynyrd Skynyrd’s album "Second Helping."
  • It reached number eight on the Billboard Hot 100.
  • The lyrics refer to the Southern states of Alabama, Mississippi, and Georgia.
  • The song has been covered by numerous artists, including Kid Rock, Zac Brown Band, and Garth Brooks.
  • It is often played at sporting events and gatherings to evoke a sense of Southern pride.

Facts About "Sweet Home Alabama"

  • The song was originally titled "Sweet Home Chicago" and written about Chicago, Illinois.
  • Lynyrd Skynyrd changed the lyrics to "Sweet Home Alabama" after their producer suggested it would be more marketable.
  • The song has been used in several films, including "Forrest Gump" and "The Dukes of Hazzard."
  • It is the most requested song at weddings in the United States.
  • The band members have stated that the song is not intended to be a political statement.

Interesting Pieces of Information

  • The song has been inducted into the Grammy Hall of Fame.
  • It was used as the theme song for the radio show "The Rush Limbaugh Show."
  • The song has been parodied by many artists, including Weird Al Yankovic.
  • It is considered one of the most popular and recognizable songs in American music history.
  • The song was written by Ronnie Van Zant, Ed King, and Gary Rossington.

FAQs

1. What is the easiest way to learn "Sweet Home Alabama"?

Start with the basic strum pattern and chords. Practice slowly and gradually increase your speed.

2. How do I strum the intro of "Sweet Home Alabama"?

Strum the G chord in a down-up-down-up-down pattern (DUDUDU).

3. What is the bridge section of the song?

The bridge features a series of alternating G and C chords.

4. How do I play the outro of "Sweet Home Alabama"?

Repeat the chorus chords but add a fade-out at the end.

5. What are some tips for playing "Sweet Home Alabama" well?

Use a clean guitar tone and play with precision. Pay attention to the timing and dynamics of the song.

Leave a Comment

Comments

No comments yet. Why don’t you start the discussion?

    Leave a Reply

    Your email address will not be published. Required fields are marked *